WELL COME TO TEEN-IT

oooooooo
 
บ้านช่วยเหลือค้นหาสมัครสมาชิก(Register)รายชื่อสมาชิกกลุ่มผู้ใช้เข้าสู่ระบบ(Log in)

Share | 
 

 ҷѧ - (դ)

อ่านหัวข้อก่อนหน้า อ่านหัวข้อถัดไป Go down 
ผู้ตั้งข้อความ
Admin
Admin


จำนวนข้อความ : 110
Registration date : 09/06/2007

ตั้งหัวข้อเรื่อง: ҷѧ - (դ)   Fri Jun 15, 2007 9:37 pm

ҷѧ -
Intro
6/------------------------------------------------6----8/10-8-6--------------------
5/------------------5---------7-5-7--7/8----------------------------5-5----3-3--
4/--5/7--5---3----------------------------------------------------------------------

3/-6-6-----6----------------------------6------------------------------------------------------
2/-------7------9-9-9-7--7---()---------7----7-----------7------------------------------
1/-------------------------------------------9----9----9-9-9-----9-9/11--11-11-11--9-

F Bb
ж˹ ͡ҩѹѹ
Gm C
ѹǧ øѹФ
F Bb
Էǧ ͺࢵ蹹
Gm C
¤ Ǩе
Dm Bb Dm Bb
*ҤͤӤѭ ѹ繤ͧ
Gm Am
Է ͤԴء
Gm Am Bb C
´ѡҧ ˹ѡѧ...
F Am
** Ҥҷѧ Էѧ繤˹
Bb C
֡ ըش»·ҧ
F Am Bb
͡Ѻä ҧ͡礧ԡѡ
Gm Bb C (F)
ҷѧ..º͡Ըҷ

Intro
3/--6---------------------------6-----------------------
2/-----7/9-7--6--7--------------7/9-7--6--7------
1/---------------------------------------------------9---

F Bb
͹ʹաѺѹ ͤԴҡ
Gm C
ͨѡѹ ԡѺä
F Bb
͹Ѻ ǵº
Gm C
á ѹâͧ
(*,**)
Solo: Bb/Am/Bb/C
3/-6-6-----6----------------------------6------------------------------------------------------
2/-------7------9-9-9-7--7---()---------7----7-----------7------------------------------
1/-------------------------------------------9----9----9-9-9-----9-9/11--11-11-11--9-
(**)
Dm/C/Bb/Am
....................
Gm Bb C
º͡Ըҷ

Outro
4/---7-----------------------------7/9----9/11--
3/-------5---7/9-----9/10-----------------------

4/---5/7---5---3-3--------------------------------
3/---------------------------5/7-7-----7/9---5---
ขึ้นไปข้างบน Go down
ดูข้อมูลส่วนตัว http://teen-it.your-board.com
 
ҷѧ - (դ)
อ่านหัวข้อก่อนหน้า อ่านหัวข้อถัดไป ขึ้นไปข้างบน 
หน้า 1 จาก 1

Permissions in this forum:คุณไม่สามารถพิมพ์ตอบ
WELL COME TO TEEN-IT :: music :: Lyrics + Chord Guitar-
ไปที่: